ISO-10303-21;
HEADER;
FILE_DESCRIPTION (( 'STEP AP203' ),
    '1' );
FILE_NAME ('BK7-BSC-5-900-1200.STEP',
    '2020-12-22T03:16:21',
    ( '' ),
    ( '' ),
    'SwSTEP 2.0',
    'SolidWorks 2020',
    '' );
FILE_SCHEMA (( 'CONFIG_CONTROL_DESIGN' ));
ENDSEC;

DATA;
#1 = EDGE_CURVE ( 'NONE', #132, #140, #92, .T. ) ;
#2 = CLOSED_SHELL ( 'NONE', ( #38, #177, #149, #80, #154 ) ) ;
#3 = EDGE_LOOP ( 'NONE', ( #279, #240, #136, #56 ) ) ;
#4 = ORIENTED_EDGE ( 'NONE', *, *, #239, .T. ) ;
#5 = EDGE_LOOP ( 'NONE', ( #26, #115, #287 ) ) ;
#6 = ORIENTED_EDGE ( 'NONE', *, *, #60, .T. ) ;
#7 = ORIENTED_EDGE ( 'NONE', *, *, #204, .F. ) ;
#8 = CC_DESIGN_APPROVAL ( #130, ( #152 ) ) ;
#9 = MANIFOLD_SOLID_BREP ( '¾µÏ', #2 ) ;
#10 = ORIENTED_EDGE ( 'NONE', *, *, #320, .T. ) ;
#11 = DIRECTION ( 'NONE',  ( 0.7071067811865476838, 0.7071067811865473507, 0.000000000000000000 ) ) ;
#12 = CARTESIAN_POINT ( 'NONE',  ( -2.500000000000000888, -2.499999999999998224, 2.500000000000000000 ) ) ;
#13 = AXIS2_PLACEMENT_3D ( 'NONE', #270, #191, #145 ) ;
#14 = CARTESIAN_POINT ( 'NONE',  ( 2.500000000000000444, -2.500000000000000444, 2.500000000000000000 ) ) ;
#15 = APPROVAL_STATUS ( 'not_yet_approved' ) ;
#16 = DIRECTION ( 'NONE',  ( 2.220446049250312588E-16, 1.000000000000000000, 0.000000000000000000 ) ) ;
#17 = CARTESIAN_POINT ( 'NONE',  ( 2.500000000000002220, 2.499999999999999556, 2.500000000000000000 ) ) ;
#18 = DIRECTION ( 'NONE',  ( -9.714451465470109868E-17, -1.000000000000000000, 0.000000000000000000 ) ) ;
#19 = AXIS2_PLACEMENT_3D ( 'NONE', #172, #81, #226 ) ;
#20 = DIRECTION ( 'NONE',  ( 0.000000000000000000, 0.000000000000000000, 1.000000000000000000 ) ) ;
#21 = FACE_OUTER_BOUND ( 'NONE', #5, .T. ) ;
#22 = LINE ( 'NONE', #125, #212 ) ;
#23 = AXIS2_PLACEMENT_3D ( 'NONE', #284, #214, #11 ) ;
#24 = DIRECTION ( 'NONE',  ( 1.000000000000000000, -9.714451465470109868E-17, 0.000000000000000000 ) ) ;
#25 = PERSON_AND_ORGANIZATION ( #43, #78 ) ;
#26 = ORIENTED_EDGE ( 'NONE', *, *, #267, .T. ) ;
#27 = APPROVAL ( #31, 'UNSPECIFIED' ) ;
#28 = ORIENTED_EDGE ( 'NONE', *, *, #239, .F. ) ;
#29 = PERSON_AND_ORGANIZATION ( #43, #78 ) ;
#30 = APPROVAL_PERSON_ORGANIZATION ( #29, #27, #86 ) ;
#31 = APPROVAL_STATUS ( 'not_yet_approved' ) ;
#32 = EDGE_CURVE ( 'NONE', #283, #257, #64, .T. ) ;
#33 = ORIENTED_EDGE ( 'NONE', *, *, #60, .F. ) ;
#34 = DIRECTION ( 'NONE',  ( 1.000000000000000000, 0.000000000000000000, 0.000000000000000000 ) ) ;
#35 = VECTOR ( 'NONE', #71, 1000.000000000000000 ) ;
#36 = ORIENTED_EDGE ( 'NONE', *, *, #107, .F. ) ;
#37 = DIRECTION ( 'NONE',  ( -0.000000000000000000, 0.000000000000000000, 1.000000000000000000 ) ) ;
#38 = ADVANCED_FACE ( 'NONE', ( #289 ), #263, .F. ) ;
#39 = DATE_TIME_ROLE ( 'classification_date' ) ;
#40 = VECTOR ( 'NONE', #150, 1000.000000000000000 ) ;
#41 = PLANE ( 'NONE',  #288 ) ;
#42 = EDGE_CURVE ( 'NONE', #159, #110, #188, .T. ) ;
#43 = PERSON ( 'UNSPECIFIED', 'UNSPECIFIED', 'UNSPECIFIED', ('UNSPECIFIED'), ('UNSPECIFIED'), ('UNSPECIFIED') ) ;
#44 = DIRECTION ( 'NONE',  ( 3.469446951953614189E-16, 1.000000000000000000, -0.000000000000000000 ) ) ;
#45 = LINE ( 'NONE', #75, #200 ) ;
#46 =( NAMED_UNIT ( * ) PLANE_ANGLE_UNIT ( ) SI_UNIT ( $, .RADIAN. ) );
#47 = CARTESIAN_POINT ( 'NONE',  ( 0.000000000000000000, 0.000000000000000000, 2.500000000000000000 ) ) ;
#48 = AXIS2_PLACEMENT_3D ( 'NONE', #122, #102, #20 ) ;
#49 = EDGE_CURVE ( 'NONE', #159, #140, #309, .T. ) ;
#50 = DIRECTION ( 'NONE',  ( -0.7071067811865476838, -0.7071067811865474617, 0.000000000000000000 ) ) ;
#51 = ADVANCED_FACE ( 'NONE', ( #70 ), #164, .F. ) ;
#52 = PLANE ( 'NONE',  #222 ) ;
#53 =( NAMED_UNIT ( * ) SI_UNIT ( $, .STERADIAN. ) SOLID_ANGLE_UNIT ( ) );
#54 = VECTOR ( 'NONE', #290, 1000.000000000000000 ) ;
#55 = CALENDAR_DATE ( 2020, 22, 12 ) ;
#56 = ORIENTED_EDGE ( 'NONE', *, *, #101, .T. ) ;
#57 = CARTESIAN_POINT ( 'NONE',  ( 0.000000000000000000, 0.000000000000000000, 0.000000000000000000 ) ) ;
#58 = EDGE_LOOP ( 'NONE', ( #116, #155, #258, #233 ) ) ;
#59 = VERTEX_POINT ( 'NONE', #139 ) ;
#60 = EDGE_CURVE ( 'NONE', #158, #283, #208, .T. ) ;
#61 = APPROVAL_ROLE ( '' ) ;
#62 = CC_DESIGN_APPROVAL ( #27, ( #146 ) ) ;
#63 = ORIENTED_EDGE ( 'NONE', *, *, #168, .T. ) ;
#64 = LINE ( 'NONE', #243, #318 ) ;
#65 = ADVANCED_FACE ( 'NONE', ( #120 ), #96, .F. ) ;
#66 = ORIENTED_EDGE ( 'NONE', *, *, #317, .T. ) ;
#67 = EDGE_CURVE ( 'NONE', #257, #202, #73, .T. ) ;
#68 = ORIENTED_EDGE ( 'NONE', *, *, #138, .T. ) ;
#69 = LOCAL_TIME ( 11, 16, 21.00000000000000000, #275 ) ;
#70 = FACE_OUTER_BOUND ( 'NONE', #242, .T. ) ;
#71 = DIRECTION ( 'NONE',  ( -0.000000000000000000, -0.000000000000000000, -1.000000000000000000 ) ) ;
#72 = CC_DESIGN_PERSON_AND_ORGANIZATION_ASSIGNMENT ( #25, #129, ( #199 ) ) ;
#73 = LINE ( 'NONE', #220, #241 ) ;
#74 = DIRECTION ( 'NONE',  ( 0.7071067811865476838, 0.7071067811865474617, 0.000000000000000000 ) ) ;
#75 = CARTESIAN_POINT ( 'NONE',  ( 2.500000000000000000, 2.500000000000000888, 2.500000000000000000 ) ) ;
#76 = DIRECTION ( 'NONE',  ( -0.000000000000000000, -0.000000000000000000, -1.000000000000000000 ) ) ;
#77 = LINE ( 'NONE', #297, #163 ) ;
#78 = ORGANIZATION ( 'UNSPECIFIED', 'UNSPECIFIED', '' ) ;
#79 = LINE ( 'NONE', #253, #266 ) ;
#80 = ADVANCED_FACE ( 'NONE', ( #221 ), #99, .T. ) ;
#81 = DIRECTION ( 'NONE',  ( -0.000000000000000000, 0.000000000000000000, 1.000000000000000000 ) ) ;
#82 = CC_DESIGN_PERSON_AND_ORGANIZATION_ASSIGNMENT ( #206, #153, ( #88 ) ) ;
#83 = CALENDAR_DATE ( 2020, 22, 12 ) ;
#84 = ORIENTED_EDGE ( 'NONE', *, *, #67, .T. ) ;
#85 = DATE_TIME_ROLE ( 'creation_date' ) ;
#86 = APPROVAL_ROLE ( '' ) ;
#87 = ORIENTED_EDGE ( 'NONE', *, *, #107, .T. ) ;
#88 = PRODUCT ( 'BK7-BSC-5-900-1200', 'BK7-BSC-5-900-1200', '', ( #256 ) ) ;
#89 = PERSON_AND_ORGANIZATION ( #43, #78 ) ;
#90 = EDGE_LOOP ( 'NONE', ( #36, #277, #303 ) ) ;
#91 = VECTOR ( 'NONE', #76, 1000.000000000000000 ) ;
#92 = LINE ( 'NONE', #211, #190 ) ;
#93 = ORIENTED_EDGE ( 'NONE', *, *, #193, .F. ) ;
#94 = EDGE_LOOP ( 'NONE', ( #4, #262, #84 ) ) ;
#95 = CC_DESIGN_DATE_AND_TIME_ASSIGNMENT ( #134, #85, ( #146 ) ) ;
#96 = PLANE ( 'NONE',  #13 ) ;
#97 = APPROVAL_ROLE ( '' ) ;
#98 = FACE_OUTER_BOUND ( 'NONE', #94, .T. ) ;
#99 = PLANE ( 'NONE',  #276 ) ;
#100 = AXIS2_PLACEMENT_3D ( 'NONE', #249, #295, #16 ) ;
#101 = EDGE_CURVE ( 'NONE', #114, #132, #264, .T. ) ;
#102 = DIRECTION ( 'NONE',  ( 1.000000000000000000, -4.440892098500625176E-16, 0.000000000000000000 ) ) ;
#103 = DIRECTION ( 'NONE',  ( 0.7071067811865474617, -0.7071067811865476838, 0.000000000000000000 ) ) ;
#104 = CARTESIAN_POINT ( 'NONE',  ( -2.500000000000000888, -2.499999999999998224, -2.500000000000000000 ) ) ;
#105 = FACE_OUTER_BOUND ( 'NONE', #301, .T. ) ;
#106 = APPROVAL_PERSON_ORGANIZATION ( #217, #130, #97 ) ;
#107 = EDGE_CURVE ( 'NONE', #59, #158, #251, .T. ) ;
#108 = APPLICATION_PROTOCOL_DEFINITION ( 'international standard', 'config_control_design', 1994, #245 ) ;
#109 = APPLICATION_PROTOCOL_DEFINITION ( 'international standard', 'config_control_design', 1994, #124 ) ;
#110 = VERTEX_POINT ( 'NONE', #14 ) ;
#111 = ORIENTED_EDGE ( 'NONE', *, *, #67, .F. ) ;
#112 = PERSON_AND_ORGANIZATION ( #43, #78 ) ;
#113 = EDGE_LOOP ( 'NONE', ( #63, #189, #308, #68 ) ) ;
#114 = VERTEX_POINT ( 'NONE', #215 ) ;
#115 = ORIENTED_EDGE ( 'NONE', *, *, #42, .T. ) ;
#116 = ORIENTED_EDGE ( 'NONE', *, *, #204, .T. ) ;
#117 = DIRECTION ( 'NONE',  ( -0.000000000000000000, -0.000000000000000000, -1.000000000000000000 ) ) ;
#118 = PRODUCT_RELATED_PRODUCT_CATEGORY ( 'detail', '', ( #88 ) ) ;
#119 = FACE_OUTER_BOUND ( 'NONE', #3, .T. ) ;
#120 = FACE_OUTER_BOUND ( 'NONE', #58, .T. ) ;
#121 = CARTESIAN_POINT ( 'NONE',  ( 2.500000000000000000, 2.500000000000000888, -2.500000000000000000 ) ) ;
#122 = CARTESIAN_POINT ( 'NONE',  ( -2.500000000000000888, -2.499999999999998224, 2.500000000000000000 ) ) ;
#123 = DIRECTION ( 'NONE',  ( -0.000000000000000000, 0.000000000000000000, -1.000000000000000000 ) ) ;
#124 = APPLICATION_CONTEXT ( 'configuration controlled 3d designs of mechanical parts and assemblies' ) ;
#125 = CARTESIAN_POINT ( 'NONE',  ( 2.500000000000000000, 2.500000000000000888, 2.500000000000000000 ) ) ;
#126 = AXIS2_PLACEMENT_3D ( 'NONE', #57, #157, #229 ) ;
#127 = DIRECTION ( 'NONE',  ( 2.220446049250312588E-16, 1.000000000000000000, 0.000000000000000000 ) ) ;
#128 = MANIFOLD_SOLID_BREP ( 'Í¹Ì¨-À', #143 ) ;
#129 = PERSON_AND_ORGANIZATION_ROLE ( 'creator' ) ;
#130 = APPROVAL ( #15, 'UNSPECIFIED' ) ;
#131 = CALENDAR_DATE ( 2020, 22, 12 ) ;
#132 = VERTEX_POINT ( 'NONE', #169 ) ;
#133 = VECTOR ( 'NONE', #123, 1000.000000000000000 ) ;
#134 = DATE_AND_TIME ( #184, #205 ) ;
#135 = APPROVAL_DATE_TIME ( #255, #27 ) ;
#136 = ORIENTED_EDGE ( 'NONE', *, *, #267, .F. ) ;
#137 = APPROVAL ( #281, 'UNSPECIFIED' ) ;
#138 = EDGE_CURVE ( 'NONE', #110, #210, #224, .T. ) ;
#139 = CARTESIAN_POINT ( 'NONE',  ( 2.500000000000000000, 2.500000000000000888, 2.500000000000000000 ) ) ;
#140 = VERTEX_POINT ( 'NONE', #173 ) ;
#141 = ORIENTED_EDGE ( 'NONE', *, *, #236, .T. ) ;
#142 = DIRECTION ( 'NONE',  ( 1.000000000000000000, -9.714451465470109868E-17, 0.000000000000000000 ) ) ;
#143 = CLOSED_SHELL ( 'NONE', ( #151, #65, #311, #304, #51 ) ) ;
#144 = PLANE ( 'NONE',  #100 ) ;
#145 = DIRECTION ( 'NONE',  ( 0.000000000000000000, -0.000000000000000000, 1.000000000000000000 ) ) ;
#146 = PRODUCT_DEFINITION ( 'UNKNOWN', '', #199, #156 ) ;
#147 = PLANE ( 'NONE',  #19 ) ;
#148 = DIRECTION ( 'NONE',  ( -3.469446951953614189E-16, -1.000000000000000000, 0.000000000000000000 ) ) ;
#149 = ADVANCED_FACE ( 'NONE', ( #293 ), #165, .F. ) ;
#150 = DIRECTION ( 'NONE',  ( -0.7071067811865476838, -0.7071067811865474617, 0.000000000000000000 ) ) ;
#151 = ADVANCED_FACE ( 'NONE', ( #119 ), #41, .F. ) ;
#152 = SECURITY_CLASSIFICATION ( '', '', #235 ) ;
#153 = PERSON_AND_ORGANIZATION_ROLE ( 'design_owner' ) ;
#154 = ADVANCED_FACE ( 'NONE', ( #98 ), #144, .F. ) ;
#155 = ORIENTED_EDGE ( 'NONE', *, *, #138, .F. ) ;
#156 = DESIGN_CONTEXT ( 'detailed design', #124, 'design' ) ;
#157 = DIRECTION ( 'NONE',  ( 0.000000000000000000, 0.000000000000000000, 1.000000000000000000 ) ) ;
#158 = VERTEX_POINT ( 'NONE', #12 ) ;
#159 = VERTEX_POINT ( 'NONE', #197 ) ;
#160 = PERSON_AND_ORGANIZATION_ROLE ( 'classification_officer' ) ;
#161 = CARTESIAN_POINT ( 'NONE',  ( -2.499999999999999556, -2.500000000000000444, 2.500000000000000000 ) ) ;
#162 = CARTESIAN_POINT ( 'NONE',  ( -2.499999999999999556, -2.500000000000000444, 2.500000000000000000 ) ) ;
#163 = VECTOR ( 'NONE', #176, 1000.000000000000000 ) ;
#164 = PLANE ( 'NONE',  #299 ) ;
#165 = PLANE ( 'NONE',  #228 ) ;
#166 = CARTESIAN_POINT ( 'NONE',  ( 2.500000000000002220, 2.499999999999999556, 2.500000000000000000 ) ) ;
#167 = APPROVAL_PERSON_ORGANIZATION ( #238, #137, #61 ) ;
#168 = EDGE_CURVE ( 'NONE', #210, #132, #271, .T. ) ;
#169 = CARTESIAN_POINT ( 'NONE',  ( 2.500000000000002220, 2.499999999999999556, -2.500000000000000000 ) ) ;
#170 = LINE ( 'NONE', #321, #40 ) ;
#171 = DATE_AND_TIME ( #291, #282 ) ;
#172 = CARTESIAN_POINT ( 'NONE',  ( 0.000000000000000000, 0.000000000000000000, 2.500000000000000000 ) ) ;
#173 = CARTESIAN_POINT ( 'NONE',  ( -2.499999999999999556, -2.500000000000000444, -2.500000000000000000 ) ) ;
#174 =( GEOMETRIC_REPRESENTATION_CONTEXT ( 3 ) GLOBAL_UNCERTAINTY_ASSIGNED_CONTEXT ( ( #286 ) ) GLOBAL_UNIT_ASSIGNED_CONTEXT ( ( #319, #46, #53 ) ) REPRESENTATION_CONTEXT ( 'NONE', 'WORKASPACE' ) );
#175 = CC_DESIGN_PERSON_AND_ORGANIZATION_ASSIGNMENT ( #112, #160, ( #152 ) ) ;
#176 = DIRECTION ( 'NONE',  ( 3.469446951953614189E-16, 1.000000000000000000, -0.000000000000000000 ) ) ;
#177 = ADVANCED_FACE ( 'NONE', ( #105 ), #272, .F. ) ;
#178 = ADVANCED_BREP_SHAPE_REPRESENTATION ( 'BK7-BSC-5-900-1200', ( #128, #9, #126 ), #174 ) ;
#179 = COORDINATED_UNIVERSAL_TIME_OFFSET ( 8, 0, .AHEAD. ) ;
#180 = VECTOR ( 'NONE', #127, 1000.000000000000000 ) ;
#181 = DATE_AND_TIME ( #83, #248 ) ;
#182 = COORDINATED_UNIVERSAL_TIME_OFFSET ( 8, 0, .AHEAD. ) ;
#183 = ORIENTED_EDGE ( 'NONE', *, *, #32, .F. ) ;
#184 = CALENDAR_DATE ( 2020, 22, 12 ) ;
#185 = ORIENTED_EDGE ( 'NONE', *, *, #1, .F. ) ;
#186 = VECTOR ( 'NONE', #285, 1000.000000000000000 ) ;
#187 = PRODUCT_DEFINITION_SHAPE ( 'NONE', 'NONE',  #146 ) ;
#188 = LINE ( 'NONE', #161, #186 ) ;
#189 = ORIENTED_EDGE ( 'NONE', *, *, #101, .F. ) ;
#190 = VECTOR ( 'NONE', #302, 1000.000000000000000 ) ;
#191 = DIRECTION ( 'NONE',  ( 0.000000000000000000, 1.000000000000000000, 0.000000000000000000 ) ) ;
#192 = DIRECTION ( 'NONE',  ( -0.7071067811865476838, -0.7071067811865474617, 0.000000000000000000 ) ) ;
#193 = EDGE_CURVE ( 'NONE', #307, #257, #196, .T. ) ;
#194 = CC_DESIGN_SECURITY_CLASSIFICATION ( #152, ( #199 ) ) ;
#195 = DIRECTION ( 'NONE',  ( 2.220446049250312588E-16, 1.000000000000000000, 0.000000000000000000 ) ) ;
#196 = LINE ( 'NONE', #296, #133 ) ;
#197 = CARTESIAN_POINT ( 'NONE',  ( -2.499999999999999556, -2.500000000000000444, 2.500000000000000000 ) ) ;
#198 = LINE ( 'NONE', #254, #180 ) ;
#199 = PRODUCT_DEFINITION_FORMATION_WITH_SPECIFIED_SOURCE ( 'ANY', '', #88, .NOT_KNOWN. ) ;
#200 = VECTOR ( 'NONE', #24, 1000.000000000000000 ) ;
#201 = LINE ( 'NONE', #121, #232 ) ;
#202 = VERTEX_POINT ( 'NONE', #225 ) ;
#203 = DIRECTION ( 'NONE',  ( 1.000000000000000000, 0.000000000000000000, 0.000000000000000000 ) ) ;
#204 = EDGE_CURVE ( 'NONE', #140, #210, #79, .T. ) ;
#205 = LOCAL_TIME ( 11, 16, 21.00000000000000000, #179 ) ;
#206 = PERSON_AND_ORGANIZATION ( #43, #78 ) ;
#207 = EDGE_LOOP ( 'NONE', ( #111, #93, #141, #10 ) ) ;
#208 = LINE ( 'NONE', #247, #54 ) ;
#209 = PERSON_AND_ORGANIZATION_ROLE ( 'design_supplier' ) ;
#210 = VERTEX_POINT ( 'NONE', #316 ) ;
#211 = CARTESIAN_POINT ( 'NONE',  ( 2.500000000000002220, 2.499999999999999556, -2.500000000000000000 ) ) ;
#212 = VECTOR ( 'NONE', #227, 1000.000000000000000 ) ;
#213 = EDGE_LOOP ( 'NONE', ( #28, #259, #87, #6 ) ) ;
#214 = DIRECTION ( 'NONE',  ( -0.7071067811865473507, 0.7071067811865476838, 0.000000000000000000 ) ) ;
#215 = CARTESIAN_POINT ( 'NONE',  ( 2.500000000000002220, 2.499999999999999556, 2.500000000000000000 ) ) ;
#216 = VECTOR ( 'NONE', #192, 1000.000000000000000 ) ;
#217 = PERSON_AND_ORGANIZATION ( #43, #78 ) ;
#218 = CARTESIAN_POINT ( 'NONE',  ( 2.500000000000002220, 2.499999999999999556, 2.500000000000000000 ) ) ;
#219 = COORDINATED_UNIVERSAL_TIME_OFFSET ( 8, 0, .AHEAD. ) ;
#220 = CARTESIAN_POINT ( 'NONE',  ( 2.500000000000000000, 2.500000000000000888, -2.500000000000000000 ) ) ;
#221 = FACE_OUTER_BOUND ( 'NONE', #90, .T. ) ;
#222 = AXIS2_PLACEMENT_3D ( 'NONE', #17, #269, #148 ) ;
#223 = FACE_OUTER_BOUND ( 'NONE', #113, .T. ) ;
#224 = LINE ( 'NONE', #265, #35 ) ;
#225 = CARTESIAN_POINT ( 'NONE',  ( 2.500000000000000000, 2.500000000000000888, -2.500000000000000000 ) ) ;
#226 = DIRECTION ( 'NONE',  ( 1.000000000000000000, 0.000000000000000000, 0.000000000000000000 ) ) ;
#227 = DIRECTION ( 'NONE',  ( -0.000000000000000000, 0.000000000000000000, -1.000000000000000000 ) ) ;
#228 = AXIS2_PLACEMENT_3D ( 'NONE', #315, #18, #310 ) ;
#229 = DIRECTION ( 'NONE',  ( 1.000000000000000000, 0.000000000000000000, 0.000000000000000000 ) ) ;
#230 = CC_DESIGN_PERSON_AND_ORGANIZATION_ASSIGNMENT ( #89, #231, ( #146 ) ) ;
#231 = PERSON_AND_ORGANIZATION_ROLE ( 'creator' ) ;
#232 = VECTOR ( 'NONE', #50, 1000.000000000000000 ) ;
#233 = ORIENTED_EDGE ( 'NONE', *, *, #49, .T. ) ;
#234 = CC_DESIGN_PERSON_AND_ORGANIZATION_ASSIGNMENT ( #278, #209, ( #199 ) ) ;
#235 = SECURITY_CLASSIFICATION_LEVEL ( 'unclassified' ) ;
#236 = EDGE_CURVE ( 'NONE', #307, #59, #45, .T. ) ;
#237 = ORIENTED_EDGE ( 'NONE', *, *, #193, .T. ) ;
#238 = PERSON_AND_ORGANIZATION ( #43, #78 ) ;
#239 = EDGE_CURVE ( 'NONE', #202, #283, #201, .T. ) ;
#240 = ORIENTED_EDGE ( 'NONE', *, *, #49, .F. ) ;
#241 = VECTOR ( 'NONE', #142, 1000.000000000000000 ) ;
#242 = EDGE_LOOP ( 'NONE', ( #185, #280, #7 ) ) ;
#243 = CARTESIAN_POINT ( 'NONE',  ( -2.500000000000000888, -2.499999999999998224, -2.500000000000000000 ) ) ;
#244 = EDGE_CURVE ( 'NONE', #110, #114, #77, .T. ) ;
#245 = APPLICATION_CONTEXT ( 'configuration controlled 3d designs of mechanical parts and assemblies' ) ;
#246 = DIRECTION ( 'NONE',  ( 0.000000000000000000, -0.000000000000000000, 1.000000000000000000 ) ) ;
#247 = CARTESIAN_POINT ( 'NONE',  ( -2.500000000000000888, -2.499999999999998224, 2.500000000000000000 ) ) ;
#248 = LOCAL_TIME ( 11, 16, 21.00000000000000000, #182 ) ;
#249 = CARTESIAN_POINT ( 'NONE',  ( 0.000000000000000000, 0.000000000000000000, -2.500000000000000000 ) ) ;
#250 = CARTESIAN_POINT ( 'NONE',  ( -2.500000000000000000, 2.500000000000001776, 2.500000000000000000 ) ) ;
#251 = LINE ( 'NONE', #312, #216 ) ;
#252 = APPROVAL_DATE_TIME ( #171, #130 ) ;
#253 = CARTESIAN_POINT ( 'NONE',  ( -2.499999999999999556, -2.500000000000000444, -2.500000000000000000 ) ) ;
#254 = CARTESIAN_POINT ( 'NONE',  ( -2.500000000000000888, -2.499999999999998224, 2.500000000000000000 ) ) ;
#255 = DATE_AND_TIME ( #131, #306 ) ;
#256 = MECHANICAL_CONTEXT ( 'NONE', #245, 'mechanical' ) ;
#257 = VERTEX_POINT ( 'NONE', #273 ) ;
#258 = ORIENTED_EDGE ( 'NONE', *, *, #42, .F. ) ;
#259 = ORIENTED_EDGE ( 'NONE', *, *, #320, .F. ) ;
#260 = CARTESIAN_POINT ( 'NONE',  ( 0.000000000000000000, 0.000000000000000000, -2.500000000000000000 ) ) ;
#261 = VECTOR ( 'NONE', #117, 1000.000000000000000 ) ;
#262 = ORIENTED_EDGE ( 'NONE', *, *, #32, .T. ) ;
#263 = PLANE ( 'NONE',  #23 ) ;
#264 = LINE ( 'NONE', #166, #91 ) ;
#265 = CARTESIAN_POINT ( 'NONE',  ( 2.500000000000000444, -2.500000000000000444, 2.500000000000000000 ) ) ;
#266 = VECTOR ( 'NONE', #203, 1000.000000000000000 ) ;
#267 = EDGE_CURVE ( 'NONE', #114, #159, #170, .T. ) ;
#268 = CARTESIAN_POINT ( 'NONE',  ( 2.500000000000002220, 2.499999999999999556, -2.500000000000000000 ) ) ;
#269 = DIRECTION ( 'NONE',  ( -1.000000000000000000, 3.469446951953614189E-16, 0.000000000000000000 ) ) ;
#270 = CARTESIAN_POINT ( 'NONE',  ( -2.499999999999999556, -2.500000000000000444, 2.500000000000000000 ) ) ;
#271 = LINE ( 'NONE', #268, #313 ) ;
#272 = PLANE ( 'NONE',  #48 ) ;
#273 = CARTESIAN_POINT ( 'NONE',  ( -2.500000000000000000, 2.500000000000001776, -2.500000000000000000 ) ) ;
#274 = CC_DESIGN_DATE_AND_TIME_ASSIGNMENT ( #314, #39, ( #152 ) ) ;
#275 = COORDINATED_UNIVERSAL_TIME_OFFSET ( 8, 0, .AHEAD. ) ;
#276 = AXIS2_PLACEMENT_3D ( 'NONE', #47, #246, #195 ) ;
#277 = ORIENTED_EDGE ( 'NONE', *, *, #236, .F. ) ;
#278 = PERSON_AND_ORGANIZATION ( #43, #78 ) ;
#279 = ORIENTED_EDGE ( 'NONE', *, *, #1, .T. ) ;
#280 = ORIENTED_EDGE ( 'NONE', *, *, #168, .F. ) ;
#281 = APPROVAL_STATUS ( 'not_yet_approved' ) ;
#282 = LOCAL_TIME ( 11, 16, 21.00000000000000000, #219 ) ;
#283 = VERTEX_POINT ( 'NONE', #104 ) ;
#284 = CARTESIAN_POINT ( 'NONE',  ( 2.500000000000000000, 2.500000000000000888, 2.500000000000000000 ) ) ;
#285 = DIRECTION ( 'NONE',  ( 1.000000000000000000, 0.000000000000000000, 0.000000000000000000 ) ) ;
#286 = UNCERTAINTY_MEASURE_WITH_UNIT (LENGTH_MEASURE( 1.000000000000000082E-05 ), #319, 'distance_accuracy_value', 'NONE');
#287 = ORIENTED_EDGE ( 'NONE', *, *, #244, .T. ) ;
#288 = AXIS2_PLACEMENT_3D ( 'NONE', #218, #103, #74 ) ;
#289 = FACE_OUTER_BOUND ( 'NONE', #213, .T. ) ;
#290 = DIRECTION ( 'NONE',  ( -0.000000000000000000, 0.000000000000000000, -1.000000000000000000 ) ) ;
#291 = CALENDAR_DATE ( 2020, 22, 12 ) ;
#292 = SHAPE_DEFINITION_REPRESENTATION ( #187, #178 ) ;
#293 = FACE_OUTER_BOUND ( 'NONE', #207, .T. ) ;
#294 = CC_DESIGN_APPROVAL ( #137, ( #199 ) ) ;
#295 = DIRECTION ( 'NONE',  ( 0.000000000000000000, -0.000000000000000000, 1.000000000000000000 ) ) ;
#296 = CARTESIAN_POINT ( 'NONE',  ( -2.500000000000000000, 2.500000000000001776, 2.500000000000000000 ) ) ;
#297 = CARTESIAN_POINT ( 'NONE',  ( 2.500000000000002220, 2.499999999999999556, 2.500000000000000000 ) ) ;
#298 = COORDINATED_UNIVERSAL_TIME_OFFSET ( 8, 0, .AHEAD. ) ;
#299 = AXIS2_PLACEMENT_3D ( 'NONE', #260, #37, #34 ) ;
#300 = APPROVAL_DATE_TIME ( #181, #137 ) ;
#301 = EDGE_LOOP ( 'NONE', ( #183, #33, #66, #237 ) ) ;
#302 = DIRECTION ( 'NONE',  ( -0.7071067811865476838, -0.7071067811865474617, 0.000000000000000000 ) ) ;
#303 = ORIENTED_EDGE ( 'NONE', *, *, #317, .F. ) ;
#304 = ADVANCED_FACE ( 'NONE', ( #21 ), #147, .T. ) ;
#305 = DIRECTION ( 'NONE',  ( 2.220446049250312588E-16, 1.000000000000000000, 0.000000000000000000 ) ) ;
#306 = LOCAL_TIME ( 11, 16, 21.00000000000000000, #298 ) ;
#307 = VERTEX_POINT ( 'NONE', #250 ) ;
#308 = ORIENTED_EDGE ( 'NONE', *, *, #244, .F. ) ;
#309 = LINE ( 'NONE', #162, #261 ) ;
#310 = DIRECTION ( 'NONE',  ( -1.000000000000000000, 9.714451465470109868E-17, 0.000000000000000000 ) ) ;
#311 = ADVANCED_FACE ( 'NONE', ( #223 ), #52, .F. ) ;
#312 = CARTESIAN_POINT ( 'NONE',  ( 2.500000000000000000, 2.500000000000000888, 2.500000000000000000 ) ) ;
#313 = VECTOR ( 'NONE', #44, 1000.000000000000000 ) ;
#314 = DATE_AND_TIME ( #55, #69 ) ;
#315 = CARTESIAN_POINT ( 'NONE',  ( 2.500000000000000000, 2.500000000000000888, 2.500000000000000000 ) ) ;
#316 = CARTESIAN_POINT ( 'NONE',  ( 2.500000000000000444, -2.500000000000000444, -2.500000000000000000 ) ) ;
#317 = EDGE_CURVE ( 'NONE', #158, #307, #198, .T. ) ;
#318 = VECTOR ( 'NONE', #305, 1000.000000000000000 ) ;
#319 =( LENGTH_UNIT ( ) NAMED_UNIT ( * ) SI_UNIT ( .MILLI., .METRE. ) );
#320 = EDGE_CURVE ( 'NONE', #59, #202, #22, .T. ) ;
#321 = CARTESIAN_POINT ( 'NONE',  ( 2.500000000000002220, 2.499999999999999556, 2.500000000000000000 ) ) ;
ENDSEC;
END-ISO-10303-21;
